Songnotes

the hand-crafted music library of @davidpots

 

follow Songnotes:

Classy Girls

The Lumineers

from the album The Lumineers released in 2012

jump to: lyrics / notes & tabs / chord progressions / song info

Lyrics

Intro

| C . . . | . . . . | F . . . | . . . . | | G . . . | F . . . | C . . . | . . . . | (see below for picking riff)

Verse

C Well, she was standing in the bar F I said, "Hello, how do you do" G F C She handed me a beer with a candle C She spoke of places I had never F ...That she had traveled to G F C And we slow danced along, a faster tune C And I made her laugh, I made a pass, I showed her my F Half dollar ring, she said... "That's pretty cool" G F C "But classy girls don't kiss in bars, you fool" (intro chords x1, change from picking to strumming) C So, later on the crowd come down F And I... believe... it was as if G F C Something drew me closer to her lips C So picture my surprise and I had F Tried... to lean... in for a kiss G F C She just smiled and turned her head down C I asked her why, and she replied, it was nothing F I was doing wrong... It's just what it is G F C Oh classy girls, don't kiss in bars like this

Ending

F G Oh classy girls, don't kiss in bars F G Boys will break their backs and hearts F G Dm Em F G And it's alright... the hardest part is through... Dm Em F G Whoa, through... Dm Em F G Ohhh, through... Dm Em F G Ohhh, through... (G) C (let ring) The hardest part is through

Notes & Tabs

General tips for playing this song...

A key to making this song work (to match how The Lumineers play it) is very slowly amping up the dynamics from quiet to heavy as you progress through the song. In the break after the third verse, The Lumineers transition from picking to strumming. By the end of the song, the full band is playing and the energy is maxed out. Imitate this as you wish, or put your own spin on it.

Basic Chords Used

Here is the standard way to play the chords used in this song. Generally, you'll want to play the chords in a way that allow you to build things up as the song progresses.

e-|----0----1----3----1-----0-----      ----------------------------
B-|----1----1----0----3-----0-----      ---5---10---12----6-----8---
G-|----0----2----0----2-----0-----      ---5---10---12----7-----9---
D-|----2----3----0----0-----2-----  or  ---5---10---12----7-----9---
A-|----3----3----2----------2-----      ---3----8---10----5-----7---
E-|---------1----3----------0-----      ----------------------------
       C    F    G    Dm    Em             C    F    G    Dm    Em 

Intro/Verse Riff Patterns, v1

The simplest way to play the intro riff is as follows. For each chord, play the pattern below (don't forget to repeat the chords if necessary). In this version, I recommend putting your left hand into the actual full chord positions -- and simply picking the strings you need. Note, this is an octave lower than what is heard on the album. Feel free to mix up your interpretation / picking pattern as desired... as long as you switch between C F and G you can't do much wrong.

e-|----------0----------    ----------1----------    ----------3----------
B-|---------------------    ---------------------    ------0------0---0---
G-|------0------0---0---    ------2------2---2---    ---------------------
D-|---------------------    ---------------------    ---------------------
A-|----3---3------3-----    ----3---3------3-----    ---------------------
E-|---------------------    ---------------------    ----3---3------3-----
       C                        F                        G 

Intro/Verse Riff Patterns, v2

If you want to more closely imitate the higher tone of the recorded version, play it like this. You can play the C and F with the same shape you'd use for a first position D chord. For the G, bar the 12th fret with your index finger.

e-|-----------12------------  -----------13------------  -----------15-----------
B-|-----13--------13----12--  -----13--------13----13--  -----15-------15----15--
G-|--12----12--------12-----  --14----14--------14-----  --16----16-------16-----
D-|-------------------------  -------------------------  ------------------------
A-|-------------------------  -------------------------  ------------------------
E-|-------------------------  -------------------------  ------------------------
      C                         F                           G 

Note, you can also play the F and G parts of this riff as follows. For the F, bar the 10th with your index finger use pinky for high note). Then, just slide everything up 2 frets to play the G -- which uses the same pattern.

                              -----------13------------  -----------15------------
                              -----10--------10----10--  -----12--------12----12--
                              --10----10--------10-----  --12----12--------12-----
                              -------------------------  -------------------------
                              -------------------------  -------------------------
                              -------------------------  -------------------------
                                F                          G 

Ending Walk-Up Progression

Here is the way I like to play the final chords in a way that resembles a more pronounced "walk up" leading to the final G and C. This isn't by any means required to make the song work (you can use the open versions of these chords), but it may be handy.

e-|------------------------
B-|---6----8----10---12----
G-|---7----9----10---12----
D-|---7----9----10---12----  (repeat)
A-|---5----7----8----10----
E-|------------------------
      Dm   Em   F    G 

Chord Progressions

Intro

| C . . . | . . . . | F . . . | . . . . |
| G . . . | F . . . | C . . . | . . . . |
                    (see above for picking riff)

Verse

"Well, she was standing in the bar..."
| C . . . | . . . . | F . . . | . . . . |
| G . . . | F . . . | C . . . | . . . . |
                    (see above for picking riff)

Ending

"Classy girls don't kiss in bars, boy will try..."
| F . . . | G . . . | (x3)
Starts after "the hardest part of through..."
| Dm . . . | Em . . . | F . . . | G . . . | 
                  (repeat, end on a C and let ring)

Song Info

Song: Classy Girls
Artist: The Lumineers
Album: The Lumineers
Year: 2012
Label: Dualtone Records

Share

Transcription, content, and notes for this song were written by David Potsiadlo. Like what you see? Tell your friends:

Recently Added

Here are the songs I have recently learned and added to the site. I typically will add one new song each week.

Browse All Songs

Here's a list of the 166 songs I've added to the site since December 2012. Each song was added by me personally.

Songs are grouped by the year they were released.

2013
2012
2011
2010
2009
2008
2006
2005
2004
2003
2002
2001
2000
1999
1998
1997
1996
1995
1994
1993
1992
1991
1990
1989
1988
1985
1984
1983
1982
1981
1980
1977
1975
1974
1972
1971
1970
1969
1968
1967
1965
1961
1958
1957

About

My name is David Potsiadlo, and I created Songnotes to share my collection of guitar tabs, chords, and lyrics for my favorite songs.

Since I started playing guitar over 10 years ago, I've often been frustrated by the preponderance of mediocre and incomplete song tabs littered across the internet. To combat this, I started keeping my own collection of notes for each song I learn -- always taking the extra time to make sure accuracy and completeness are never compromised. Years later, my collection grew to the point where I knew I had to share it online with fellow aspiring musicians.

In December 2012, I began designing & developing a website that became Songnotes. Here, I share my personal collection of hand-crafted music notation with all those online. I hope you enjoy.

You can also view my personal website or follow me on Twitter / Dribbble / GitHub / LinkedIn.